Star Wars Main Theme guitar tab

December 7, 2009 16:04 by scibuff

I’ve played the guitar for some years but only recently I’ve discovered the version of Star Wars Main Theme played by Tomi Paldanius. As a true Star Wars fan i decided to tab it so share with the Star Wars Universe! This version is a bit simplified (only bass, melody and chords without inversions) but it works quite well.

Tomi Paldanius plays Star Wars - Main Theme

Tuning: Standard (EADGBe)

  (repeat 2x)
e|-----------------------------3-----------------3---------------------------|
B|---------------3-------1p0-----------3---1p0---------3---1p0h1-------------|
G|---------------------------2-----------------2-------------------2~--------|
D|-0-0-0-5---4---2--p0-------------------------------------------------------|
A|-----------------------3-----2--p0-------3-----2--p0-----3-----------------|
E|-------------------------------------3---------------3---------------------|

e|---------------------------------------------------------------------------|
B|-----------1p0------------------------------1p0-----3----------------------|
G|---------------2p0-0h2p0-2----------------------2p0-----2------------------|
D|-0-0-2---2-----------------2/4----0-0-2---2------------0-------------------|
A|-----3-3-------------------3/5--------3-3-----------1----------------------|
E|---------------------------------------------------------------------------|

e|--------------------------------------3-1----------------------------------|
B|-----------1p0----------------------------4-3-1-------1/3------------------|
G|---------------2p0-0h2p0-2----------------------3-2-0----------------------|
D|-0-0-2---2-----------------2/4----0-0----------------------0-0-0-0---------|
A|-----3-3-------------------3/5---------------------------------------------|
E|---------------------------------------------------------------------------|

e|-----------------------------3-----------------3-------------------2-2-2-3-|
B|---------------3-------1p0-----------3---1p0---------3---1p0h1-----1-1-1-3-|
G|---------------------------2-----------------2-------------------2-2-2-2---|
D|-0-0-0-5---4---2--p0-------------------------------------------------------|
A|-----------------------3-----2--p0-------3-----2--p0---------3-----------2-|
E|-------------------------------------3---------------3-------------------3-|

| /  slide up
| \  slide down
| h  hammer-on
| p  pull-off
| ~  vibrato
| +  harmonic
| x  Mute note
===============================================================================
Be Sociable, Share!

Comments

3

Z~

Thanks for the tabs, i can’t believe i finnaly found them *¬*

Ah, and in the “0h2p0-2” part in the second riff, i think that this way sounds cool too: “0h2s4s2”

vY

very cool thx =)

Yoros

You missed a lot of strings but thank you for you work ^^

Leave your comment:
XHTML:You can use these tags: <a href="" title=""> <abbr title=""> <acronym title=""> <b> <blockquote cite=""> <cite> <code> <del datetime=""> <em> <i> <q cite=""> <s> <strike> <strong> . * required